Gorillaz México y Latinoamérica Foro

Geek Domains
Gorillaz México y Latinoamérica Foro » Música
Acordes y Tablaturas de Gorillaz [G-Sides (en progreso)]

Responder Página 1 2  Siguiente >
Autor Mensaje
Folk
Invitado



Mensajes: 16776889


#1 Escribió el primer mensaje de este tema Publicado: Sab Abr 06, 2013 1:41 pm - Título del mensaje: Acordes y Tablaturas de Gorillaz [G-Sides (en progreso)] Responder citando

Ya que buscar los acordes y tablaturas que hay en el otro topic/tema puede resultar un tanto tedioso (en especial para los nuevos usuarios quienes varias veces preguntan por los que ya están publicados), he decidido  armar este topic principal donde estarán todas y cada una de las tabs y chords (parte de estas sacadas del anterior topic y otras en las que iré trabajando yo) de la banda ordenadas según álbum para que así sea más fácil encontrar la que uno está buscando.

Aún así, me tormará cierto trabajo y para ir mostrando el progreso que llevo, iré editando este mensaje y publicando en el mismo tema las actualizaciones del mismo. La mecánica será la siguiente: solo comenzaré a publicar las tabs de otros discos cuando todas las de los discos anteriores estén subidas y ordenadas. Por ejemplo: no subiré la tablatura de 12D3 (G-Sides) hasta que estén subidas todas las del disco "Gorillaz" (desde Re-Hash hasta M1A1). Además, iré indicando en el título entre corchetes por qué disco es que voy.

Pueden ir publicando pedidos, así como opiniones y/o correcciones que les parezcan convenientes en ciertas tablaturas o acordes si es que así lo desean, todo es discutible, de paso mejoramos la calidad de las mismas. También tengan en cuenta que algunas tabs estarán en diferentes fortmatos (ya que es copy+paste del topic anterior), pero siempre se recomienda poner las tabs en Código ([code][/code.] sin el punto) para que no se deformen.

Espero que este tema les sirva tanto a nuevos como viejos usuarios,  las tabs las tienen en el mensaje/post de abajo.


Última edición por Folk el Vie Sep 12, 2014 3:18 pm; editado 2 veces
Subir ^
Folk
Invitado



Mensajes: 16776889


#2 Escribió el primer mensaje de este tema Publicado: Sab Abr 06, 2013 2:16 pm - Título del mensaje: Asunto Responder citando

Dobleposthingy~
Tablaturas y Acordes actualizables de la discografía:


Click acá para ver acordes y tabs
VVV

  G5  G#5
|---------------------|
|---------------------|
|---------------------|
|-5-5--6-6----------|
|-5-5--6-6----------|
|-3-3--4-4----------|

Parte A
 A5     G5       G5 G#5 A5    G5      G#5  
|-----------------------------------------------------------------------|
|-----------------------------------------------------------------------|
|-----------------------------------------------------------------------|
|-7--7--5-5-5--5-5/6/7-7-7--5--5-5-6----------------------------|
|-7--7--5-5-5--5-5/6/7-7-7--5--5-5-6----------------------------|
|-5--5--3-3-3--3-3/4/5-5-5--3--3-3-4----------------------------| [x5]

Parte B

Oh what a situation, but don't wanna stop
 F#5        C#5                  B5                     A5  
|-------------------------------------------------------|
|-------------------------------------------------------|
|-11--11---------------------------------------------|
|-11--11-11-11--11--x-x-9-9-9-9-9-9--9--7---|
|-9---9---11-11--11--x-x-9-9-9-9-9-9--9--7---|
|----------9---9----9---x-x-7-7-7-7-7-7--7--5---|

1:55 (aunque se toca [x1] en el minuto 0:48 de fondo)
Frases de la cítara (desafina al parecer):

|---------------2-----------2------------------2----------|
|---3---3/5------5----5------3----3---3/5------5---5--|
|-4---4-------------4------------4---4-------------4-----|
|------------------------------------------------------------|
|------------------------------------------------------------|
|------------------------------------------------------------| [x2]

La Parte A se usa más que nada en el resto de la canción

x= nota muda (poner la mano encima de las cuerda y rasguear o tocar)
/= deslizar el dedo de una nota hacia otra o el traste siguiente
[x]= repetir la secuencia o tablatura que se indica a la izquierda, la cantidad de veces que indique el número al lado de la "x"
Acordes:
Intro
A - G - A - G

Versos
A - G - A - G
F#m - D#m - B - A
A - G - A - G
G - D#m - B - A

Versos
A - G - A - G

Melodía (2:13):
A - C# - E
A - G# - A - G# - F# - F#
A - C# - E (*)
F# - E - D - D
(*) = las mismas notas pero una octava infierior a las que se tocaron anteriormente

Intro
e|---------------------------------------------|
B|---------------------------------------------|
G|------------------------------8-8-8---------|
D|-10-10-10-10-10--10-10--8-8-8---------| x2
A|-10-10-10-10-10--10-10--6-6-6---------|
E|--8--8--8--8--8-----8--8------------------|

Cuando termina las 2 primeras veces, la primera guitarra sigue igual pero inmediantamente le sigue la segunda guitarra de esta
otra forma:

e|-------------------------------------------------|
B|-------------------------------------------------|
G|-----------10-10-10-----------8-8-8----------|
D|--10-10--10-10-10---10-10--8-8-8----------| x14
A|--10-10---8--8--8----10-10--6-6-6----------|
E|--8--8------------------8--8-------------------|

Despues de las 14 veces hecho esto junto con la primera guitarra
sigue en el coro asi:

e|-----------------------------------------------|
B|-----------------------------------------------|
G|-12-12-12-12-12-12-12-12----------------|
D|-12-12-12-12-12-12-12-12----------------| x4
A|-10-10-10-10-10-10-10-10----------------|
E|-----------------------------------------------|

Despues, en el resto de la canciòn, la primera guitarra desparece reemplazada por un instrument , el cual no se que sera xD, pero sigue asi:

e|-------------------------------------------------|
B|-------------------------------------------------|
G|-----------10-10-10-----------8-8-8----------|
D|--10-10--10-10-10---10-10--8-8-8----------| x14
A|--10-10---8--8--8----10-10--6-6-6----------|
E|--8--8------------------8--8-------------------|


y en el coro:

e|-----------------------------------------------|
B|-----------------------------------------------|
G|-12-12-12-12-12-12-12-12----------------|
D|-12-12-12-12-12-12-12-12----------------| x4
A|-10-10-10-10-10-10-10-10----------------|
E|-----------------------------------------------|

Luego queda en silencio con la voz durante 16 tiempos (Negras), luego 8 tiempos con bateria y de ahi aparece la segunda guitarra
otra vez:

e|-----------------------------------------------|
B|-----------------------------------------------|
G|-12-12-12-12-12-12-12-12----------------|
D|-12-12-12-12-12-12-12-12----------------| x4
A|-10-10-10-10-10-10-10-10----------------|
E|-----------------------------------------------|

y termina.

Código:
Acordes
 G#m / Sol#     C#m / Do#m    F#m / Fa#m     B /Si
|-4----------| |-4---------| |-2---------| |-2---------|
|-4----------| |-5---------| |-2---------| |-4---------|
|-5----------| |-6---------| |-3---------| |-4---------|
|-6----------| |-6---------| |-4---------| |-4---------|
|-6----------| |-4---------| |-4---------| |-2---------|
|-4----------| |-----------| |-2---------| |-----------|


Versos

G#m - C#m [x3]

F#m - C#m [x3]


Estribillo

G#m x2

B x2
G# B G# B G# B C# G# (x2)

E F# E F# E F# G# E

E F# E F# E F# E C#

Código:
 G   D   C
|-3---2---0-------------------------|
|-3---3---1-------------------------|
|-0---2---0-------------------------|
|-0---0---2-------------------------|
|-2-------3-------------------------|
|-3---------------------------------|


Intro
G (x8)


Versos
G (x4) - D - C [x2]


Estribillo
G - C - G - G - D - C - G - G

Puente (parte de la melódica)
G (x8)
Nota sobre el solo: se recomienda ir tocando las notas a la par del tema para agarrar el tirmo en el que se tocan, ya que no es del todo constante y más que nada es un solo.

Intro/entre partes/Outro:
G - F - E - G - Db

Versos:
G - D - G - Db - C - G [x2]
G - D - Db - D - E - D
G - D - G - Db - C - G

Solo:
F - G - G
F - G - G - G
F - G - G - G
F - G - G -
F - G - G - G
F - G - A#
F - G - A# - A#
F - G - A# - A#
F - A# - A# - G - A# - A#
C - D - D - C - D - D - C - D - C - D
D - E - E - E - D - E - E - D - E - E
E - F - E - F - F - E - F - F - F
F - G - F - G - G - G - G - G - G

G# A# G# A# Eb

G# A A# G# A# Eb

G# A A# G# A# Eb

Eb A# C# G#   F# G# F#  Eb A#   C# G#

La canción está en La# (A#)

Código:
Versos:
|----------------------------------------|
|-------------8-8------------------------|
|-----6-6-------------11----8p6h8--------|
|-6-6-----6-6-----4-4--------------------|

Estribillo:
|----------------------------------------|
|----------------------------------------|
|-6-6-6-6-6-6---6------11-11-11-11----11-|
|-------------6---6----------------11----|


p: pull off (manteniendo el sonido de la nota tocada pasamos con otro dedo a la nota más baja que se indica justo al lado en la tablatura)
h: hammer on (manteniendo el sonido de la nota tocada pasamos con otro  dedo a la nota más alta que se indica justo al lado en la tablatura)

Por: FolkPunker

Intro y Versos:

|--------------------------------------------------------|
|--------------------------------------------------------|
|--5-5-5-----------5------------------------------------|
|--5-5-5--5-5-5---5-----------------------------------|(x8 )
|--3-3-3--5-5-5---3-----------------------------------|
|----------3-3-3----------------------------------------|

Coro:

|--------------------------------------------------------|
|--------------------------------------------------------|
|--------------------------------------------------------|
|--3-3-3--5-5-5----3-3-3--5-5-5---------------------|(x2)
|--3-3-3--5-5-5----3-3-3--5-5-5---------------------|
|--1-1-1--3-3-3----1-1-1--3-3-3---------------------|


La parte que le sigue

|--------------------------------------------------------|
|--------------------------------------------------------|
|--5-5-5----------------------------------------5--------|
|--5-5-5--5-5-5--8----------5-5-5--3-3-3--5--------|
|--3-3-3--5-5-5--8----------5-5-5--3-3-3--3--------|
|----------3-3-3--6----------3-3-3--1-1-1------------|

Verso:

|--------------------------------------------------------|
|--------------------------------------------------------|
|--5-5-5-----------5------------------------------------|
|--5-5-5--5-5-5---5-----------------------------------|(x8 )
|--3-3-3--5-5-5---3-----------------------------------|
|----------3-3-3----------------------------------------|


Coro:

|--------------------------------------------------------|
|--------------------------------------------------------|
|--------------------------------------------------------|
|--3-3-3--5-5-5----3-3-3--5-5-5---------------------|(x2)
|--3-3-3--5-5-5----3-3-3--5-5-5---------------------|
|--1-1-1--3-3-3----1-1-1--3-3-3---------------------|


Final

|--------------------------------------------------------|
|--------------------------------------------------------|
|--5-5-5----------------------------------------5--------|
|--5-5-5--5-5-5--8----------5-5-5--3-3-3--5--------|
|--3-3-3--5-5-5--8----------5-5-5--3-3-3--3--------|
|----------3-3-3--6----------3-3-3--1-1-1------------|

|----------------------------------------------|
|----------------------------------------------|
|----------------------------------------------|
|----------------------------------------------|
|-12----12-----------------------------------|
|----12----------15-15---12--5------------| (x3)

|----------------------------------------------|
|----------------------------------------------|
|----------------------------------------------|
|----------------------------------------------|
|-12----12-----------------------------------|
|----12----------15-15-15---12--5--------|

Si bien durante las dos primeras cosas que se toca (A y B), es lo básico que se toca, va variando con el tiempo en pequeños detalles casi no infuluye en el sonido final. Este ciclo entero se repite una y otra vez de la manera escrita.

Código:
 [b]A[/b]
|----------------------------------------|
|----------------------------------------|
|----------------------------------------|
|----------------------------------------|
|----------------------------------------|
|-6-6-6-6-6b-6-6--6--6-6h7p6-------------| (x4)

[b]B[/b]
|----------------------------------------|
|----------------------------------------|
|----------------------------------------|
|----------------------------------------|
|----------------------------------------|
|-4-4-4-4-4b-4-4--4--4-4h5p4-------------| (x4)


|-----------------------------------------------------|
|-----------------------------------------------------|
|-----------------------------------------------------|
|-----------------------------------------------------|
|-----------------------------------------------------|
|-3b-----6-6-6-6-8-6--3b-----6-6-6-6h8-6---0---11---0-|

|----------------------------------------|
|----------------------------------------|
|----------------------------------------|
|----------------------------------------|
|----------------------------------------|
|-6-6-6-6-6b-6-6--6--6-6h7p6-------------| (x4)


|----------------------------------------|
|----------------------------------------|
|----------------------------------------|
|----------------------------------------|
|----------------------------------------|
|-4-4-4-4-4b-4-4--4--4-4h5p4-------------| (x4)

|-----------------------------------------------------|
|-----------------------------------------------------|
|-----------------------------------------------------|
|-----------------------------------------------------|
|-----------------------------------------/15---3-----|
|-3b-----6-6-6-6-8-6--3b-----6-6-6-6h8-6--------------|

Por: Folkpunker


Intro y Versos
|----------------------------------------------|
|----------------------------------------------|
|----------------------------------------------|
|----------------------------------------------|
|----------------------------------------------|
|-3----0-1-2-3-----3----0-5-0-1-2-3-----|

Estribillo
|----------------------------------------------|
|----------------------------------------------|
|----------------------------------------------|
|-----5-----4----2-2-------------------------|
|---5---5-----2------0--5-5----------------|
|-3----------------------------3---------------|

Do Si Sol Re Fa Sol La

Re Sol La Do Si Re Si La


Re Sol La Do Si Sol Re Fa La Sol

Re Sol La Do Si Re Si La

Re Sol La Do Si Sol Re Fa La Sol

Re Sol La Do Si Re Si La

La(*) La(*) Sol(*)


(*)= Octava (opcional)

Acordes:
G - A

Riff del Intro (x2)
Código:
|-----------3--------------1-----------------------------3----|
|-------3-----3--------1-----1------------1----------3-----3--|
|---------0---------------------------0-----0----------0------|
|-----------------3--3---3--------------2---------------------|
|--------------------------------3--3-------------------------|
|-3--3------------------------------------------3--3----------|



Acordes:
G - A

Línea de bajo:
Código:
|----------------------------------------------------------------|
|----------------------------------------------------------------|
|---------------------------------0-----0------0-----------------|
|-3--1--3--3-1-3--3--1--3--3-1-3-----0-----5-3----3--1--3--3-1-3-|


Acordes:

Código:
F  --1-3-3-2-1-1--|
B  --x-2-4-4-4-2--| o --7-9-9-8-7-7--|
Em --0-2-2-0-0-0--| o --x-7-9-9-8-7--|
Am --x-0-2-2-1-0--|
D  --x-x-0-2-3-2--|
G  --3-2-0-0-3-3--|


Tablatura:

Código:
   F           B           Em          B
E -1--1--------2--------2--------------2-------2--|
B -1-----1-----4-----4-----8--8--------4----4-----|
G -2--------2--4--4--------9-----9-----4--4-------|
D -3-----------4-----------9--------9--4----------|
A -3-----------2-----------7-----------2----------|
E -1----------------------------------------------|




Intro:

[ F B Em B ] x4


F  B   Em
Dejalo
B               F   B  Em
si quieres continuar (hermano)
B  Am            D G
sal ilumina tu vida
Em                 B
todo el cielo aplastandote
B
dime que harás
F     B   Em
Enfrentalo
B            F  B
ilumina ese amor
            Em  B
antes que se vaya
Am         D  G        Em
algo siempre te entristese
               B
cuando todo va bien
       B
que pasa contigo?
       B
que pasa contigo?


[ F B Em B ] x8


F  B   Em
Dejalo
B               F B Em
si quieres continuar
B            F    B     Em
no ocultes tu alma al sol
B                Am   D
tienes una vida preciosa
       G  Em    B
de que sirve si solo
             B
muerte sobre necesidad
       B
que pasa?
       B
que pasa contigo?
       B
que pasa contigo mi hermano?
       B
Que pasa contigo?


Outro: Tocar B hasta el fin de los tiempos

E|------------------------------------------------------------------|
B|------------------------------------------------------------------|
G|------------------------------------------------------------------|
D|--------------4--------4--2--0------------------------------------|
A|-2--2--2--2----------------------------------4---------4---0----|
E|----------------2-2-2------------3--3--3--3-----3-3-3-------------|
Acordes:
Bm - G

Melodía de (casi) el final:
B - B - B - B - F#
F#* - F#* - F# - E - D
G - G - G - G - C#
G - G - C# - A

* = la misma nota pero una octava infierior a la que se tocó anteriormente

Acordes:

Intro/Estribillo
E - A - E - A [x2]

Versos
E - A - E - A - E - Am

Melodía

Intro/Outro
E - G# - E - B - D# - B - C#x3 - B - D#

Puente
E - C# - B - C# - B
G# - F# - E
C# - E
F# - G# - D# - E

Bueno, en toda la canción saltando el intro (en el cual la suceción de notas es de F5 y A5 nada más) todo lo que sigue es ponerle A5 xD de esta forma:

A5 A5 A5
|----------------------------------------------|
|----------------------------------------------|
|----------------------------------------------|
|-7-7--7--x----------------------------------|
|-7-7--7--x----------------------------------|
|-5-5--5--x----------------------------------|


Minuto 2:51
Parte Antes del solo

|-5-5-5--5-5-5--5-5-5-5h-5--------------|
|----------------------------------------------|
|----------------------------------------------|
|----------------------------------------------|
|----------------------------------------------|
|----------------------------------------------|x4

|-4/5-5-5-5--5/7-7-7-7--7/8-8-8-8--8/10-10-10-10--10/12-12-12-12|
|-----------------------------------------------------------------------------------|
|-----------------------------------------------------------------------------------|
|-----------------------------------------------------------------------------------|
|-----------------------------------------------------------------------------------|
|-----------------------------------------------------------------------------------|

|-13-13-13-13--15-15-15-17--17h-----|
|----------------------------------------------|
|----------------------------------------------|
|----------------------------------------------|
|----------------------------------------------|
|----------------------------------------------|

el solo se repite 4 veces
y luego esto para finalizar

|-5-5--5-5-5--5h-5-5--5-5-5--5---------|
|----------------------------------------------|
|----------------------------------------------|
|----------------------------------------------|
|----------------------------------------------|
|----------------------------------------------|

h= estirar para arriba la cuerda
x= parar esas notas momentaneamente con la mano o la pua, haciendo mute
/= hacer slide o deslizar de esa nota a la siguiente

Click acá para ver acordes y tabs
VVV
G-Sides




Guía musical:
.En muchos casos utilizo el cifrado americano por una cuestión práctica mía, para que comprendan mejor las notas:
A= La
B= Si
C= Do
D= Re
E= Mí
F= Fa
G= Sol

.Aquí símbolos que van al lado de la notas musicales:
#= Nota sostenida (un semi-tono más (a la derecha en caso de guitarra y piano))
b= Nota bemol (un semi-tono menos (a la izquiera en el caso de guitarra y piano))
m= Nota menor


.Dentro de las tablaturas
b/bend= Estirar la cuerda
/ ó \ = Slide o deslizarse de una nota a otra. Ejemplo: de 5 a 7 "|--5/7--|" o de 7 a 5 "|--7\5--|"
p: Pull off (manteniendo el sonido de la nota tocada pasamos con otro dedo a la nota más baja que se indica justo al lado en la tablatura)
h: Hammer on (manteniendo el sonido de la nota tocada pasamos con otro  dedo a la nota más alta que se indica justo al lado en la tablatura)


Última edición por Folk el Sab Feb 11, 2017 10:15 am; editado 17 veces
Subir ^
CJG4L
DONCACEJOTA
avatar

Reg.: 20 Oct 2010
starstarstarstarstarstarstar

Mensajes: 4325
Género: Masculino
Ubicación: Ivory Tower
México


#3 Publicado: Sab Abr 06, 2013 4:04 pm  Responder citando

Te ano, Folk
_________________
Subir ^
Ivan2600
Old-School G-Fan


Reg.: 08 Oct 2012
starstarstarstarstar

Mensajes: 143
Género: Masculino


#4 Publicado: Mar Abr 30, 2013 3:53 pm  Responder citando

no hay de piano Sad
Subir ^
Folk
Invitado



Mensajes: 16776889


#5 Escribió el primer mensaje de este tema Publicado: Jue May 02, 2013 6:28 am  Responder citando

Ivan2600 escribió el Mar Abr 30, 2013 6:53 pm :
no hay de piano Sad


Como ya he puesto en el primer mensaje, si es que tienen algún pedido de una canción o canciones en específico, háganlos (pero especifiquen cuáles quieren).

Acabo de actualizar con los acordes y melodías para Slow Country.
Subir ^
Ivan2600
Old-School G-Fan


Reg.: 08 Oct 2012
starstarstarstarstar

Mensajes: 143
Género: Masculino


#6 Publicado: Lun May 06, 2013 3:22 pm  Responder citando

FolkPunker escribió el Jue May 02, 2013 6:28 am :
Ivan2600 escribió el Mar Abr 30, 2013 6:53 pm :
no hay de piano Sad


Como ya he puesto en el primer mensaje, si es que tienen algún pedido de una canción o canciones en específico, háganlos (pero especifiquen cuáles quieren).

Acabo de actualizar con los acordes y melodías para Slow Country.


Gracias , Smile) Lugiazul
Subir ^
Ivan2600
Old-School G-Fan


Reg.: 08 Oct 2012
starstarstarstarstar

Mensajes: 143
Género: Masculino


#7 Publicado: Mar May 21, 2013 3:55 pm  Responder citando

ahora si me puedes proporcionar por favor la de starshine y la de re hash para piano por favor lo mas completas posibles te lo agradeceré y si quieres yo pongo las de demon days para  piano en el tema basados en el demon days songbook
Subir ^
Folk
Invitado



Mensajes: 16776889


#8 Escribió el primer mensaje de este tema Publicado: Mar May 21, 2013 5:07 pm  Responder citando

Ivan2600 escribió el Mar May 21, 2013 6:55 pm :
ahora si me puedes proporcionar por favor la de starshine y la de re hash para piano por favor lo mas completas posibles te lo agradeceré y si quieres yo pongo las de demon days para  piano en el tema basados en el demon days songbook


No sé para qué quieres de esas canciones, siendo que casi no participan (por decir que no lo hacen directamente o no son relevantes), al ser de todo de guitarra y bajos. Pero bueno, ahí está.

Editado:
+ Re-Hash (Piano)
+ Starshine (Piano)

Y, no gracias, ya tengo los acordes de ese Song Book.
Subir ^
Ivan2600
Old-School G-Fan


Reg.: 08 Oct 2012
starstarstarstarstar

Mensajes: 143
Género: Masculino


#9 Publicado: Jue May 23, 2013 4:04 pm  Responder citando

estoy pensando hacer mi primer cover en guitarra y sera la de sound check , estoy ocupando esta tab esta bien?
e-----------------------------------------------------|
b-----------------------------------------------------|
g-----------------------------------------------------|
D---7--7--7----0/5--5--5----0/7--7--7----0/5---5--5---|
A---7--7--7----0/5--5--5----0/7--7--7----0/5---5--5---|
E---5--5--5----0/3--3--3----0/5--5--5----0/3---3--3---|
Subir ^
Folk
Invitado



Mensajes: 16776889


#10 Escribió el primer mensaje de este tema Publicado: Jue May 23, 2013 5:03 pm  Responder citando

Sí, personalmente yo solo tocaría E al aire (en el cambio de G a A y viceversa) y y no las otras dos también para hacerlo más sutil, pero está bien.
Subir ^
grado
Murdoc Niccals
avatar

Reg.: 13 May 2010
starstarstarstarstarstarstar

Mensajes: 1214
Género: Masculino
Ubicación: Badajoz, Extremadura
España


#11 Publicado: Vie May 24, 2013 1:18 pm  Responder citando

¿Alguien puede conseguirme los acordes para guitarra de DoYaThin?
_________________

Cita:
[15/Jan 17:06] Hime Murasaki: ahh si xD dije: Debería llamarse Foro Gorillaz México, Latinoamérica, España y todos los que saben hablar español xD
Subir ^
Folk
Invitado



Mensajes: 16776889


#12 Escribió el primer mensaje de este tema Publicado: Vie May 24, 2013 1:40 pm  Responder citando

grado escribió el Vie May 24, 2013 4:18 pm :
¿Alguien puede conseguirme los acordes para guitarra de DoYaThin?

Arrow  http://gorillazmx.1foro.com/post229733.html#229733
Subir ^
Ivan2600
Old-School G-Fan


Reg.: 08 Oct 2012
starstarstarstarstar

Mensajes: 143
Género: Masculino


#13 Publicado: Vie May 24, 2013 4:21 pm  Responder citando

FolkPunker escribió el Jue May 23, 2013 5:03 pm :
Sí, personalmente yo solo tocaría E al aire (en el cambio de G a A y viceversa) y y no las otras dos también para hacerlo más sutil, pero está bien.


bueno y necesito saber si tocar las canciones de gorillaz es efectivo o recomendable con cuerdas de nylon o metálicas en acustica
Subir ^
Folk
Invitado



Mensajes: 16776889


#14 Escribió el primer mensaje de este tema Publicado: Vie May 24, 2013 11:43 pm  Responder citando

Ivan2600 escribió el Vie May 24, 2013 7:21 pm :
FolkPunker escribió el Jue May 23, 2013 5:03 pm :
Sí, personalmente yo solo tocaría E al aire (en el cambio de G a A y viceversa) y y no las otras dos también para hacerlo más sutil, pero está bien.


bueno y necesito saber si tocar las canciones de gorillaz es efectivo o recomendable con cuerdas de nylon o metálicas en acustica


Con la que estés más acostumbrado, dude. Eso ya depende de cada uno, de lo que le sea más comodo, el enfoque que quiera darle al cover (que no tiene por qué ser el original, al fin y al cabo es tu visión y (re-)interpretación del tema.

Ahora, si quieres darle el sentido original o acercarte lo más posible, en canciones que veas que son con un sonido más metálico como es el caso de Bobby in Phoenix, usa las de metal, y en otros las de nylon.
Subir ^
Pazuzu
Old-School G-Fan
avatar

Reg.: 22 Abr 2013
starstarstarstar

Mensajes: 199
Género: Masculino
Ubicación: En mi casa
Argentina


#15 Publicado: Dom Jun 16, 2013 10:51 am  Responder citando

19/2000 por favor es un gran tema
_________________


ART BY Shannel_Fox
Subir ^
Mostrar mensajes anteriores:   
Responder Página 1 de 2 Página 1 2  Siguiente >
Horas en GMT - 5
Ir a:  
NO puedes: crear mensajes/responder temas/editar tus mensajes/borrar tus mensajes/votar en encuestas -> Regístrate/Conéctate
Volver a Música
Geek Domains

Crear foro gratis | Staff del foro | Reportar abuso | Cookies | Powered by phpBB/Sopel