Gorillaz México y Latinoamérica Foro

Geek Domains
Gorillaz México y Latinoamérica Foro » Música
Acordes y Tablaturas de Gorillaz [G-Sides (en progreso)]

Responder Página < Anterior  1 2
Autor Mensaje
Folk
Invitado



Mensajes: 16776889


#16 Escribió el primer mensaje de este tema Publicado: Dom Jun 16, 2013 2:17 pm  Responder citando

Pazuzu escribió el Dom Jun 16, 2013 1:51 pm :
19/2000 por favor es un gran tema


Hecho, Guitarra y Bajo, aunque no sé si es que requerías para Piano. De cualquier forma, avisame.
Subir ^
Pazuzu
Old-School G-Fan
avatar

Reg.: 22 Abr 2013
starstarstarstar

Mensajes: 199
Género: Masculino
Ubicación: En mi casa
Argentina


#17 Publicado: Mie Jun 19, 2013 8:32 pm  Responder citando

Si podes todas dale , gracias
_________________


ART BY Shannel_Fox
Subir ^
Pazuzu
Old-School G-Fan
avatar

Reg.: 22 Abr 2013
starstarstarstar

Mensajes: 199
Género: Masculino
Ubicación: En mi casa
Argentina


#18 Publicado: Vie Sep 12, 2014 12:04 pm  Responder citando

En progreso ... yo diría abandono
_________________


ART BY Shannel_Fox
Subir ^
Folk
Invitado



Mensajes: 16776889


#19 Escribió el primer mensaje de este tema Publicado: Vie Sep 12, 2014 2:50 pm - Título del mensaje: Asunto Responder citando


Enlace: http://youtube.com/watch?v=5kLfS3Zps5I


Álbum debut "Gorillaz" completo. Comenzaré con G-Sides en este mensaje y redirigiré desde el de la página uno, ya es muy cansino editar ese tan repleto.

Click acá para ver acordes y tabs
VVV

Acordes:
G - F - C

Riff del Intro (x2)
Código:
|-----------3--------------1-----------------------------3----|
|-------3-----3--------1-----1------------1----------3-----3--|
|---------0---------------------------0-----0----------0------|
|-----------------3--3---3--------------2---------------------|
|--------------------------------3--3-------------------------|
|-3--3------------------------------------------3--3----------|


Acordes:
G - F - C

Línea de bajo:
Código:
|----------------------------------------------------------------|
|----------------------------------------------------------------|
|---------------------------------0-----0------0-----------------|
|-3--1--3--3-1-3--3--1--3--3-1-3-----0-----5-3----3--1--3--3-1-3-|


Variantes de los Acordes:
Código:
  E     Em   D
|-12----12---10--|
|-12----12---10--|
|-13----12---11--|
|----------------|
|----------------|
|----------------|


Intro/Estribillo
Em - D

Puente del Intro/Versos
E - D
Principal
Código:
|------------------------------------------------------|
|------------------------------------------------------|
|---------2-2--5-5-5-5-4-4-----------2-2--5-5-5-5-4-4--|
|-0-0-0-0--------------------0-0-0-0-------------------|


|-----------------------------------------------------|
|-2-2-2-2---------------------------------------------|
|---------5-2--5-5-5-5-4-4-----------2-2--5-5-5-5-4-4-|
|----------------------------0-0-0-0------------------|

Acordes:
Intro/Estribillo
Em - D

Puente del Intro/Versos
E - D

Melodía
Intro/Riff
E - B - G - E - B
D - A - F# - D - A
E - B - G - E - B
D - D - E - F# - E - D

(0:16)
D - C# - D - C#
B - D - C# - D - C# - A
B - C - B - A - G - E
A - B - . - C - B - E

Trompetas (0:32)
E - E - E - E - E - B - D
E - E - E - E - E - E - F#
E - E - E - E - F# - E - D
E - E - E - D - D - D - D - E

Outro
B - C [varias veces]
E [hasta el final]

Acordes:

Todo el tema
Gm

Puente
G5 - Db5 - C5 - Bb5 - G [x4]

Tablatura:

Intro/Estribillo
Código:
|---5/6-5---4/5-5--5-3--|
|-3-------3-------------|
|---6/7-6---------------|
|-----------------------|
|-----------------------|
|-----------------------|


Versos
Código:
|----------------------------------------------------|
|-8-8b10-6--8-8b10-6--8-8b10-6--8b10-8b10-8b10-8b10--|
|----------------------------------------------------|
|----------------------------------------------------|
|----------------------------------------------------|
|----------------------------------------------------|

Intro/General
Código:

|-------------------------------|
|-------------------------------|
|-------------------------------|
|-3---0-1-2-3---3---0-5-0-1-2-3-|


Estribillo
Código:

|-----------------------|
|-----------------------|
|-----------------------|
|-3---1-3---------------|


Código:
|---------------------------------|
|---------------------------------|
|-5-5-5-5-5-5-5-5-5-5-5-5-5-5-5-5-| (x4)
|---------------------------------|


Código:
|------------------------|
|------------------------|
|-8-(x8)-10-(x8)-5-(x16)-|
|------------------------|


Código:
|-----------------------------------------------------------|
|-------7-7-7-5--------7-7-7-5--------7-7-7-5---------------|
|-3(x8)----------3(x8)----------3(x8)---------3(x8)---------|
|---------------------------------------------------1-1--3--|


Acordes:
Todo el tema
B5 - D5

Puente
E5

Segundo Estribillo

Código:
|--------------------------|
|--------------------------|
|-3/4-4-4-4-4-4--7-7-7-7-7-|
|-3/4-4-4-4-4-4--7-7-7-7-7-|
|-1/2-2-2-2-2-2--5-5-5-5-5-|
|--------------------------|

|------------------------------|
|------------------------------|
|-3/4-4-4-4-4-4----------------|
|-3/4-4-4-4-4-4--4-4-4-3-3-2-2-|
|-1/2-2-2-2-2-2--4-4-4-3-3-2-2-|
|----------------2-2-2-1-1-0-0-|

Versos

Código:
|---------------------------------------------------------|
|---------------------------------------------------------|
|-1/2-2-2-2-2-2--5-5-5-5-5---1/2-2-2-2-2-2--4/5-5-5-5-5-5-|
|---------------------------------------------------------|

Estribillo

Código:
|-----------------------------------------------------|
|-----------------------------------------------------|
|-1/2-2-2-2-2-2--5-5-5-5-5---1/2-2-2-2-2-2------------|
|-------------------------------------------2-2-2-2-2-|


Código:

E-------------------------------------|
B-------------------------------------|
G---4/6--2/4------4--6---6p4\4p2------|
A--------------2--------------------0-|
E----------------------------------0--|

E------------------------------------------|----------------------|
B------------------------------------------|----------------------|
G--4/6--4\2--2--4-----------4\2/4--6--2--4-|-------4/6--4\2--4--2-|
D------------------------------------------|----------------------|
A------------------------2-----------------|---0------------------|
E-------------------0-0--------------------|-0--------------------|

E------------------------------|------------------------------|
B------------------------------|------------------------------|
G------------------------------|------------------------------|
D-----------2------------------|-----------2------------------|
A------5-----------4---5-------|------5-------------4---5-----|
E--3------------2--------------|--3--------------2------------|



E-------------------------------|
B-------------------------------|
G-------------------------------|
D-------------------------------|
A--------3-------------------2--|
E---1-------------------1-0-----|


Solo

G-G-A-B--B-C-D-E-D-B--D-C-B-A--C-B-A-G-G--G-A-B-B-C-D-E-D-B--D-C-B-A-B-A-G

D-C-B-A-----C-B-A-G--G-G-A-B-B-C-D-E-D-B--D-C-B-A-B-A-G-G
--------D-D-----------------------------------------------
Solo

Código:
e|---------------------------------------------------------------------|
B|---------------------------------------------------------------------|
G|---------------------------------------------------------------------|
D|--5-5-7-9--9-10-12-14-12-9-12-10-9-7--10-9-7-5-----------------------|
A|---------------------------------------------------------------------|
E|---------------------------------------------------------------------|

e|---------------------------------------------------------------------|
B|---------------------------------------------------------------------|
G|---------------------------------------------------------------------|
D|--5-5-7-9--9-10-12-14-12-9-12-10-9-7-9-7-5--5------------------------|
A|---------------------------------------------------------------------|
E|---------------------------------------------------------------------|

e|---------------------------------------------------------------------|
B|---------------------------------------------------------------------|
G|---------------------------------------------------------------------|
D|--12-10-9-7---10-9-7-5--5-5-7-9--9-10-12-14-12-9-12-10-9-7-9-7-5--5--|
A|-----------5-5-------------------------------------------------------|
E|---------------------------------------------------------------------|

e|---------------------------------------------------------------------|
B|---------------------------------------------------------------------|
G|---------------------------------------------------------------------|
D|--12-10-9-7---10-9-7-5--5-5-7-9--9-10-12-14-12-9-12-10-9-7-9-7-5--5--|
A|-----------5-5-------------------------------------------------------|
E|---------------------------------------------------------------------|  


Todo el tema

Código:
|-----2--------------------2------------|
|-----3--------------------3------------|
|-----2--------------------2------------|
|-0-0----0-2-0-3b0---0-0-0----0-2-0-3b0-|
|-0-0----------------0-0-0--------------|
|---------------------------------------|


Solo

Código:
|-8-7---8-5---3-5---5-----|
|---------------------6/7-|
|-------------------------|
|-------------------------|
|-------------------------|
|-------------------------|


  F           B           Em          B
Código:
E -1--1--------2--------2--------------2-------2--|
B -1-----1-----4-----4-----8--8--------4----4-----|
G -2--------2--4--4--------9-----9-----4--4-------|
D -3-----------4-----------9--------9--4----------|
A -3-----------2-----------7-----------2----------|
E -1----------------------------------------------|


Acordes:
Intro | Versos | Coro
F - B - Em - B

Puente
Am - D - G - Em - B
Intro | Versos | Coro:
Código:
|------------------------|
|------------------------|
|-----3-2b2----------2b2-|
|-1-----------0----------|


Puente:
Código:
|-----------7--------------------------------|
|-7---7---7---7--5---5-----2---------9-----9-|
|---7---5----------5-----2---2-----9-----9---|
|----------------------0---------7-----7-----|



Primera parte
A# - B
F2 - F2 - F2 - F#2 - A2 - G2 - F#2
F2 - G2 - F#2
A2 - E2 - D#2 - D2 - E2 - F2 - B
A# - B

Final
B - B - B - B
C2 - B - C2 - B - D#2
B - D#2 - E2
B - E2 - F2
F2 - F#2
G2 - G#2
B2 - D#2 - E2 - G2 - F#2




Última edición por Folk el Sab Feb 11, 2017 10:15 am; editado 14 veces
Subir ^
Pazuzu
Old-School G-Fan
avatar

Reg.: 22 Abr 2013
starstarstarstar

Mensajes: 199
Género: Masculino
Ubicación: En mi casa
Argentina


#20 Publicado: Vie Sep 12, 2014 9:20 pm  Responder citando

Yo solo quería una cangreburger Razz

Solo tengo guitarra así que me van a servir. Después te puedo ayudar, avisame negro
Subir ^
MarhakD
nuev@
avatar

Reg.: 18 Jul 2014
starstarstar

Mensajes: 12
Género: Femenino
Ubicación: Vaughan
Canada


#21 Publicado: Vie Sep 12, 2014 11:20 pm  Responder citando

Yo tenía por ahí algunos acordes para melódica de G-Sides, igual si los encuentro podría pasarlos...?
_________________
Come on! Come on! Come on! Ghost Train!

Subir ^
Folk
Invitado



Mensajes: 16776889


#22 Escribió el primer mensaje de este tema Publicado: Vie Sep 12, 2014 11:45 pm  Responder citando

Obvio, todo sirve como he puesto en el comienzo del post, y cómo ponerlo en todo caso

http://gorillazmx.1foro.com/post270302.html#270302
Subir ^
Folk
Invitado



Mensajes: 16776889


#23 Escribió el primer mensaje de este tema Publicado: Sab Feb 28, 2015 8:45 pm  Responder citando

Actualización, luego de unos meses:
+ Dracula (Bajo) & (Melódica)
+ The Sounder (Guitarra) & (Bajo)
+ Faust (Bajo)

PD: Arreglen el bug del hide en la Vista Preliminar, plox, se hace muy incómodo editar sin el hide.
Subir ^
Pazuzu
Old-School G-Fan
avatar

Reg.: 22 Abr 2013
starstarstarstar

Mensajes: 199
Género: Masculino
Ubicación: En mi casa
Argentina


#24 Publicado: Mar Mar 31, 2015 12:31 pm  Responder citando

Que groso papá
Subir ^
elpanda23
Tambien conocido como Incognitus
avatar

Reg.: 26 Feb 2010
starstarstarstarstarstarstar

Mensajes: 7338
Ubicación: JAUZ OF PANDA
Chile


#25 Publicado: Mar Mar 31, 2015 5:09 pm  Responder citando

bien ahi maquinola .....
_________________

THE WOOFY IS ON FIRE!!!!
Subir ^
Folk
Invitado



Mensajes: 16776889


#26 Escribió el primer mensaje de este tema Publicado: Dom Abr 12, 2015 7:10 pm - Título del mensaje: Asunto Responder citando

Y bueno, ya terminé G-Sides, disco cortito pero casi sin tabs por internet. El orden es el que pude sacar más general entre todas las versiones existentes y omitiendo los remixes (razón por la que no subiré de Laika, porque de la misma manera tendría que hacerlo también con el del CD2 de D-Sides y me parece al pedo).

De momento dejo el Song book, que me parece una fuente más que excelente al ser oficial:
https://es.scribd.com/doc/312908724/Gorillaz-Demon-Days-Songbook-PDF


Última edición por Folk el Sab Feb 11, 2017 10:13 am; editado 1 vez
Subir ^
melani
nuev@


Reg.: 07 Nov 2016
star

Mensajes: 1


#27 Publicado: Lun Nov 07, 2016 10:15 pm - Título del mensaje: Asunto Responder citando

broken para piano??? por favor Very Happy Very Happy
Subir ^
Folk
Invitado



Mensajes: 16776889


#28 Escribió el primer mensaje de este tema Publicado: Mar Ene 24, 2017 2:32 pm - Título del mensaje: Asunto Responder citando

Esto quedó re abandonado, como el foro en general (aunque como he dicho, no tengo por qué hacer todo el trabajo yo, pueden aportar sus acordes y tabs revisadas y las agrego, pero siempre se trata de dejarle el trabajo a alguien más ¿no?) hasta hace poco.

Pero aprovechando que hay canción nueva de 'Rillaz, y que estaba trabajando en algo y saqué los acordes, aquí va:



Todo el Tema
D  - D - G - D [x3] - F#m - E - B - B - G  - G- Em - Em - A - A - A - A
Spoken Verse
D - Bm - G - A


[x3] = se repite esa secuencia de D - D - G - D tres veces


Se puede complicar tocarlo a tiempo porque está en 7/8, razón por la que el tema en sí suena descolocado, estamos más acostumbrados a un tiempo de 4/4.
Subir ^
Mostrar mensajes anteriores:   
Responder Página 2 de 2 Página < Anterior  1 2
Horas en GMT - 5
Ir a:  
NO puedes: crear mensajes/responder temas/editar tus mensajes/borrar tus mensajes/votar en encuestas -> Regístrate/Conéctate
Volver a Música
Geek Domains

Crear foro gratis | Staff del foro | Reportar abuso | Cookies | Powered by phpBB/Sopel