Gorillaz México y Latinoamérica Foro

Geek Domains
Gorillaz México y Latinoamérica Foro » Arte
¿Cual es tu video favorito?

Responder Página < Anterior  1 2 3 4 5  Siguiente >
Autor Mensaje
Presagio.
Quiero un rango
avatar

Reg.: 11 Abr 2010
starstarstarstarstarstarstarstar

Mensajes: 2135
Ubicación: El balcón de Paul.
Canada


#46 Publicado: Lun Abr 12, 2010 9:31 pm  Responder citando

Y...la verdad que me gustan todos. Feel good inc. me encanta todo el ambiente que tiene, la animación, y además como extra es el video de mi canción favorita de Gorillaz, y Clint Eastwood también está muy bueno el video por el ambiente. Los videos de Rock the House y 19-2000 son recontra divertidos, también me gustan mucho. Dare no varía demasiado pero en lo general el video también me gusta mucho. Rock It tiene un video muy bueno, muy diferente al resto. Stylo tiene esa magia de ser el primer video en el que los gorillaz salen "así". Tomorrow Comes Today es...bueno, pega con la canción, aunque supongo que no es tan bueno como el resto.

Pero sin duda, me quedo con el video de Dirty Harry, es genial.

_________________
Subir ^
fabrizzio
Murdoc Niccals
avatar

Reg.: 06 Abr 2010
starstarstarstarstarstarstarstar

Mensajes: 494
Género: Masculino
Ubicación: en un lugar ._.
Perú


#47 Publicado: Sab Abr 17, 2010 10:04 am  Responder citando

a mi m encanta el mañana, m hac llorar x noodle Sad
y rock it...blah blah blah blah blah blah blah
_________________
I like apples Very Happy (?)
Subir ^
Angel02ana
Old-School G-Fan
avatar

Reg.: 08 Abr 2010
starstarstarstarstarstarstarstar

Mensajes: 161
Género: Femenino
Ubicación: In GorillazLand Mexico


#48 Publicado: Dom Abr 18, 2010 3:21 pm  Responder citando

Waw esta muy difícil >_<
me gustan TODOS, hasta sus conciertos XD
son la onda.

19/2000 fue el primero que vi y en el cual conocí al grupo.
Me encanta la canción y además me da risa el Arce XD

Feel good inc también me gusta mucho, los escenarios y adoro a 2-D en ese video, se ve tan Sexy *0*

Rock da House: me Encanta !!!! me gusta mucho la canción , adoro a las gorilas porristas XD bailan bien cool B) y Murdoc OMG!!! Como me saca la carcajada y se ve bien Xp y 2-D con esa camisa de Spiderman KYAAA pero lo malo es que me lo golpean bolas uou

Dare: ame el video por que baila genial Noodle, Russel esta en el baño leyendo XD, 2-D chimosea y Murdoc tiene una mala pesadilla ( pero yo se que le gusto XD)

DIrTY HARRY : OMG!! 2D se ve tan sexy sin camisa XD, los mocosos me causan tanta gracia hahahahha y adoro como baila 2D y la lagartija hahahha

Clint Eastwood: waw también me gusta XD, mugrosos gorilas zombies, bailan genial y waw adoro la apariencia del grupo en el video . Mi segundo video que vi de ellos

El mañana: este fue el mas traumante y triste para mi ToT

Rock it: en ese video , cuando lo vi me daba miedo la estatua XD pero ahora me causa gracia jajaja no se porque XD

saludos
_________________


Subir ^
Rhinestone-paul
Murdoc Niccals


Reg.: 19 Abr 2010
starstarstarstarstarstarstarstar

Mensajes: 724
Género: Masculino
Ubicación: In a highway under construction
Siria


#49 Publicado: Mar Abr 20, 2010 3:41 pm  Responder citando

Mis videos favoritos son:
-Feel Good INC.
-Stylo
-Clint Eastwood
_________________

F.C.P.R.E.M.I.X
Subir ^
Lady_Malice
Old-School G-Fan
avatar

Reg.: 22 Abr 2010
starstarstarstarstarstarstarstar

Mensajes: 133
Ubicación: Diseñando una linea de vestuario para la señorita Noodle!


#50 Publicado: Lun Abr 26, 2010 7:26 pm  Responder citando

yo amo todos los videos pero mi favorito el Feel good inc, hablando de eso alguien tiene por alli  partituras, buenas partituras para guitarra del tema por alli queremos hacer un duo de cuerdas con mi hermano del tema! sep
_________________



SI,Mi firma es una foto mia, ¿algun problema?


ME gustan  las cosas raras, lindas y oscuras, por eso estoy aqui!
Subir ^
Nudoru_WTF
Russel Hobbs
avatar

Reg.: 03 Abr 2010
starstarstarstarstarstarstarstar

Mensajes: 2271
Ubicación: Somewhere, deep in my dreams.
México


#51 Publicado: Lun Abr 26, 2010 7:53 pm  Responder citando

mmm es dificil...pues el primero fue clint eastwood,despues feel good inc,luego Dirty harry,luego de nuevo rock the house,y despues el mañana por que de esta no me canso ni 2 meses de escucharla!y ver el video,hasta ahora a sido mi fuente de inspirasion en momentos de tristesa,(tambien DARE pasa lo mismo xD)el de Stylo que me parese impresionante el efecto 3-D,(si hubiera sido animado estaria raro),pero el que mas me superencanto creo que fue,nadamas y nada menos que....

5/4!!!!!

si fue ese!casi se me cae la baba de verlo xDy me puse bien roja cuando lo vi con mis hermanos (no importa si es animatic?)

y todos los del primer disco,el segundo,y hasta ahora y seguro que me gustaran los del 3º disco
_________________


This man is just too perfect. ♡


Última edición por Nudoru_WTF el Lun Abr 26, 2010 7:58 pm; editado 1 vez
Subir ^
Asuka Yagami
Murdoc Niccals
avatar

Reg.: 22 Mar 2010
starstarstarstarstarstarstarstar

Mensajes: 1756
Género: Femenino
Ubicación: Por aquí, por allá, en todos lados :D
México


#52 Publicado: Lun Abr 26, 2010 7:57 pm  Responder citando

ES QUE SON MUCHOS!!!! Pero wenn, mejor los nombro y las razones.

  • Clint Eastwood: Su animación es genial!!!
  • Fire coming out of the monkey's head: Amo el mensaje de la canción.
  • Feel good Inc.: Me gusta mucho por el molino y por los efectos.
  • El Mañana: Me pone melancólica y siempre me deja pensando
  • DARE: Igualmente por su animación, además que está genial como para poner en tu fiesta de cumpleaños!!! (yeah, así serán mis 1Cool
  • Stylo: Tiene estilo (XD)

_________________



Subir ^
Folk
Invitado



Mensajes: 16776889


#53 Publicado: Lun Abr 26, 2010 8:34 pm  Responder citando

Lady_Malice :
yo amo todos los videos pero mi favorito el Feel good inc, hablando de eso alguien tiene por alli  partituras, buenas partituras para guitarra del tema por alli queremos hacer un duo de cuerdas con mi hermano del tema! sep


Bueno no son partituras, sino tablaturas, espero que aun asi te sirvan.

Tablatura


Intro

Primera guitarra
|--11----11/9-------9-----9---------------------------|
|-----11----------------9-----9--7---4/6/4------------|
|--------------------------------------------------------|
|--------------------------------------------------------|
|--------------------------------------------------------|
|--------------------------------------------------------| (x4)

Verso

Primera guitarra
|--11----11/9-------9---9-----------------------------|
|-----11----------------9---9--7---4/6/4--------------|
|--------------------------------------------------------|
|--------------------------------------------------------|
|--------------------------------------------------------|
|--------------------------------------------------------| (x4)

Segunda Guitarra (Entre al final de la ultima parte del primer tiempo del verso)
|--13-13-15-13-12-------13-13-15-13-12-----------|
|----------------------15------------------------15----|
|--------------------------------------------------------|
|--------------------------------------------------------|
|--------------------------------------------------------|
|--------------------------------------------------------| (x3)

Windmill Windmill...

1ra guitarra
Re#m -La#m - Sol#m - La#m (x4)

2da guitarra
|-----------------------------------------------9----------|
|--11-9-11-9-11-9-11-9-11-9-11-9-11---11-9---|
|--------------------------------------------------------|
|--------------------------------------------------------|
|--------------------------------------------------------|
|--------------------------------------------------------|(x4)

1ra guitarra

La#m (x2)

2da guitarra
|--------------------------------------------------------|
|--11-9-11-9-11-9-11-9-11-9-11-9------------------|
|--------------------------------------------------------|
|--------------------------------------------------------|
|--------------------------------------------------------|
|--------------------------------------------------------|

Verso

Primera guitarra
|--11----11/9-------9---9-----------------------------|
|-----11----------------9---9--7---4/6/4--------------|
|--------------------------------------------------------|
|--------------------------------------------------------|
|--------------------------------------------------------|
|--------------------------------------------------------| (x4)

Segunda Guitarra (Entre al final de la ultima parte del primer tiempo del verso)
|--13-13-15-13-12-------13-13-15-13-12--------|
|----------------------15------------------------15----|
|--------------------------------------------------------|
|--------------------------------------------------------|
|--------------------------------------------------------|
|--------------------------------------------------------| (x3)

Windmill Windmill...

1ra guitarra
Re#m -La#m - Sol#m - La#m (x4)

2da guitarra
|-----------------------------------------------9----------|
|--11-9-11-9-11-9-11-9-11-9-11-9-11---11-9------|
|--------------------------------------------------------|
|--------------------------------------------------------|
|--------------------------------------------------------|
|--------------------------------------------------------|(x4)

1ra guitarra

La#m (x2)

2da guitarra
|--------------------------------------------------------|
|--11-9-11-9-11-9-11-9-11-9-11-9------------------|
|--------------------------------------------------------|
|--------------------------------------------------------|
|--------------------------------------------------------|
|--------------------------------------------------------|

Final

Primera guitarra
|--11----11/9-------9---9------------------------------|
|-----11----------------9---9--7---4/6/4--------------|
|--------------------------------------------------------|
|--------------------------------------------------------|
|--------------------------------------------------------|
|--------------------------------------------------------| (x4)

Tab: Por FolkPunker


(Maldito foro, me corre las rayitas)
Subir ^
Asuka Yagami
Murdoc Niccals
avatar

Reg.: 22 Mar 2010
starstarstarstarstarstarstarstar

Mensajes: 1756
Género: Femenino
Ubicación: Por aquí, por allá, en todos lados :D
México


#54 Publicado: Lun Abr 26, 2010 10:12 pm  Responder citando

FolkPunker :
Lady_Malice :
yo amo todos los videos pero mi favorito el Feel good inc, hablando de eso alguien tiene por alli  partituras, buenas partituras para guitarra del tema por alli queremos hacer un duo de cuerdas con mi hermano del tema! sep


Bueno no son partituras, sino tablaturas, espero que aun asi te sirvan.

Tablatura


Intro

Primera guitarra
|--11----11/9-------9-----9---------------------------|
|-----11----------------9-----9--7---4/6/4------------|
|--------------------------------------------------------|
|--------------------------------------------------------|
|--------------------------------------------------------|
|--------------------------------------------------------| (x4)

Verso

Primera guitarra
|--11----11/9-------9---9-----------------------------|
|-----11----------------9---9--7---4/6/4--------------|
|--------------------------------------------------------|
|--------------------------------------------------------|
|--------------------------------------------------------|
|--------------------------------------------------------| (x4)

Segunda Guitarra (Entre al final de la ultima parte del primer tiempo del verso)
|--13-13-15-13-12-------13-13-15-13-12-----------|
|----------------------15------------------------15----|
|--------------------------------------------------------|
|--------------------------------------------------------|
|--------------------------------------------------------|
|--------------------------------------------------------| (x3)

Windmill Windmill...

1ra guitarra
Re#m -La#m - Sol#m - La#m (x4)

2da guitarra
|-----------------------------------------------9----------|
|--11-9-11-9-11-9-11-9-11-9-11-9-11---11-9---|
|--------------------------------------------------------|
|--------------------------------------------------------|
|--------------------------------------------------------|
|--------------------------------------------------------|(x4)

1ra guitarra

La#m (x2)

2da guitarra
|--------------------------------------------------------|
|--11-9-11-9-11-9-11-9-11-9-11-9------------------|
|--------------------------------------------------------|
|--------------------------------------------------------|
|--------------------------------------------------------|
|--------------------------------------------------------|

Verso

Primera guitarra
|--11----11/9-------9---9-----------------------------|
|-----11----------------9---9--7---4/6/4--------------|
|--------------------------------------------------------|
|--------------------------------------------------------|
|--------------------------------------------------------|
|--------------------------------------------------------| (x4)

Segunda Guitarra (Entre al final de la ultima parte del primer tiempo del verso)
|--13-13-15-13-12-------13-13-15-13-12--------|
|----------------------15------------------------15----|
|--------------------------------------------------------|
|--------------------------------------------------------|
|--------------------------------------------------------|
|--------------------------------------------------------| (x3)

Windmill Windmill...

1ra guitarra
Re#m -La#m - Sol#m - La#m (x4)

2da guitarra
|-----------------------------------------------9----------|
|--11-9-11-9-11-9-11-9-11-9-11-9-11---11-9------|
|--------------------------------------------------------|
|--------------------------------------------------------|
|--------------------------------------------------------|
|--------------------------------------------------------|(x4)

1ra guitarra

La#m (x2)

2da guitarra
|--------------------------------------------------------|
|--11-9-11-9-11-9-11-9-11-9-11-9------------------|
|--------------------------------------------------------|
|--------------------------------------------------------|
|--------------------------------------------------------|
|--------------------------------------------------------|

Final

Primera guitarra
|--11----11/9-------9---9------------------------------|
|-----11----------------9---9--7---4/6/4--------------|
|--------------------------------------------------------|
|--------------------------------------------------------|
|--------------------------------------------------------|
|--------------------------------------------------------| (x4)

Tab: Por FolkPunker


(Maldito foro, me corre las rayitas)


Fabulosas tablaturas. Siguiente meta... APRENDER A TOCAR LA GUITARRA!!!!
Subir ^
Lady_Malice
Old-School G-Fan
avatar

Reg.: 22 Abr 2010
starstarstarstarstarstarstarstar

Mensajes: 133
Ubicación: Diseñando una linea de vestuario para la señorita Noodle!


#55 Publicado: Lun Abr 26, 2010 10:42 pm  Responder citando

Muack!!! gracias! ahora quiero ver si la paso a violin. sayo!
Subir ^
FabrizioTheKick-Ass
Russel Hobbs
avatar

Reg.: 27 Feb 2010
starstarstarstarstarstarstarstar

Mensajes: 2691
Ubicación: The Mushroom Kingdom
Perú


#56 Publicado: Mar Abr 27, 2010 4:40 pm  Responder citando

Lady_Malice :
Muack!!! gracias! ahora quiero ver si la paso a violin. sayo!

violin? VIOLIN? GENIALLL!!!  Very Happy  Very Happy  Very Happy  Very Happy
_________________
sheepbanana :
Ayer me la jalé

Subir ^
Angel02ana
Old-School G-Fan
avatar

Reg.: 08 Abr 2010
starstarstarstarstarstarstarstar

Mensajes: 161
Género: Femenino
Ubicación: In GorillazLand Mexico


#57 Publicado: Mar Abr 27, 2010 4:53 pm  Responder citando

Chicos...
Eviten salirse del tema Smile
y para no hacer Spam ....

Waw se me olvido agregar el de Stylo y 5/4
0_0
pues ambos me encantan =0_0=
el primero por el ritmo, la acción, el suspenso y me gusta como desaparece el policía XD
y el segundo por que.., es una de mis canciones favoritas y ....
Sale súper genial MURDOC *0*
_________________


Subir ^
Nudoru_WTF
Russel Hobbs
avatar

Reg.: 03 Abr 2010
starstarstarstarstarstarstarstar

Mensajes: 2271
Ubicación: Somewhere, deep in my dreams.
México


#58 Publicado: Mie Abr 28, 2010 7:32 pm  Responder citando

Angel02ana :
Chicos...
Eviten salirse del tema Smile
y para no hacer Spam ....

Waw se me olvido agregar el de Stylo y 5/4
0_0
pues ambos me encantan =0_0=
el primero por el ritmo, la acción, el suspenso y me gusta como desaparece el policía XD
y el segundo por que.., es una de mis canciones favoritas y ....
Sale súper genial MURDOC *0*


tienes la razon del mundo  Cool
_________________


This man is just too perfect. ♡
Subir ^
mynameisoly
Damon Albarn
avatar

Reg.: 08 Mar 2010
starstarstarstarstarstarstarstar

Mensajes: 353
Ubicación: Holywood


#59 Publicado: Mie Abr 28, 2010 11:51 pm  Responder citando

Feel good Inc por supuesto! aun se me pone la piel chinita cuando veo ese video :3

oh demaciados recuerdo, lovely (?)
_________________
"Have a zombie day, eat someone"
Subir ^
otaku_jat
Murdoc Niccals
avatar

Reg.: 08 May 2010
starstarstarstarstarstarstarstar

Mensajes: 1395
Género: Masculino
Ubicación: ._.
México


#60 Publicado: Sab May 08, 2010 10:05 pm  Responder citando

a mi ME ENCANTA!!!  todas sus canciones pero mas DARE!!!!!!! es que me necanta NOODLE!!!
_________________
Subir ^
Mostrar mensajes anteriores:   
Responder Página 4 de 5 Página < Anterior  1 2 3 4 5  Siguiente >
Horas en GMT - 5
Ir a:  
NO puedes: crear mensajes/responder temas/editar tus mensajes/borrar tus mensajes/votar en encuestas -> Regístrate/Conéctate
Volver a Arte
Geek Domains

Crear foro gratis | Staff del foro | Reportar abuso | Cookies | Powered by phpBB/Sopel